ISO-10303-21;
HEADER;
FILE_DESCRIPTION (( 'STEP AP203' ),
    '1' );
FILE_NAME ('Q-QZWP-R4-20-894-M.STEP',
    '2020-12-23T01:26:34',
    ( '' ),
    ( '' ),
    'SwSTEP 2.0',
    'SolidWorks 2020',
    '' );
FILE_SCHEMA (( 'CONFIG_CONTROL_DESIGN' ));
ENDSEC;

DATA;
#1 = APPROVAL_STATUS ( 'not_yet_approved' ) ;
#2 = DIRECTION ( 'NONE',  ( 1.000000000000000000, 0.000000000000000000, 0.000000000000000000 ) ) ;
#3 =( NAMED_UNIT ( * ) PLANE_ANGLE_UNIT ( ) SI_UNIT ( $, .RADIAN. ) );
#4 = APPROVAL ( #29, 'UNSPECIFIED' ) ;
#5 = VERTEX_POINT ( 'NONE', #151 ) ;
#6 = AXIS2_PLACEMENT_3D ( 'NONE', #303, #19, #314 ) ;
#7 = ORIENTED_EDGE ( 'NONE', *, *, #50, .F. ) ;
#8 = DATE_AND_TIME ( #136, #230 ) ;
#9 = AXIS2_PLACEMENT_3D ( 'NONE', #203, #174, #130 ) ;
#10 = ORIENTED_EDGE ( 'NONE', *, *, #110, .T. ) ;
#11 = ORIENTED_EDGE ( 'NONE', *, *, #143, .F. ) ;
#12 = VERTEX_POINT ( 'NONE', #60 ) ;
#13 = DIRECTION ( 'NONE',  ( 0.000000000000000000, 0.000000000000000000, 1.000000000000000000 ) ) ;
#14 = EDGE_CURVE ( 'NONE', #244, #141, #86, .T. ) ;
#15 = CARTESIAN_POINT ( 'NONE',  ( -3.000000000000000000, 0.000000000000000000, 0.000000000000000000 ) ) ;
#16 = DIRECTION ( 'NONE',  ( 1.000000000000000000, 0.000000000000000000, 0.000000000000000000 ) ) ;
#17 = CARTESIAN_POINT ( 'NONE',  ( 3.000000000000000000, 0.000000000000000000, 12.69999999999999929 ) ) ;
#18 = DIRECTION ( 'NONE',  ( -1.000000000000000000, -0.000000000000000000, -0.000000000000000000 ) ) ;
#19 = DIRECTION ( 'NONE',  ( -1.000000000000000000, -0.000000000000000000, -0.000000000000000000 ) ) ;
#20 = DIRECTION ( 'NONE',  ( -1.000000000000000000, 0.000000000000000000, -0.000000000000000000 ) ) ;
#21 =( NAMED_UNIT ( * ) SI_UNIT ( $, .STERADIAN. ) SOLID_ANGLE_UNIT ( ) );
#22 = EDGE_LOOP ( 'NONE', ( #28, #193 ) ) ;
#23 = CC_DESIGN_PERSON_AND_ORGANIZATION_ASSIGNMENT ( #274, #294, ( #40 ) ) ;
#24 = AXIS2_PLACEMENT_3D ( 'NONE', #259, #20, #131 ) ;
#25 = EDGE_CURVE ( 'NONE', #300, #154, #276, .T. ) ;
#26 = AXIS2_PLACEMENT_3D ( 'NONE', #153, #288, #262 ) ;
#27 = CALENDAR_DATE ( 2020, 23, 12 ) ;
#28 = ORIENTED_EDGE ( 'NONE', *, *, #74, .F. ) ;
#29 = APPROVAL_STATUS ( 'not_yet_approved' ) ;
#30 = CC_DESIGN_SECURITY_CLASSIFICATION ( #128, ( #40 ) ) ;
#31 = EDGE_CURVE ( 'NONE', #211, #87, #162, .T. ) ;
#32 = ORIENTED_EDGE ( 'NONE', *, *, #231, .F. ) ;
#33 = SECURITY_CLASSIFICATION_LEVEL ( 'unclassified' ) ;
#34 = CC_DESIGN_APPROVAL ( #4, ( #40 ) ) ;
#35 = ORIENTED_EDGE ( 'NONE', *, *, #14, .F. ) ;
#36 = CARTESIAN_POINT ( 'NONE',  ( 2.500000000000000888, 1.224646799147353256E-15, -10.00000000000000000 ) ) ;
#37 = APPLICATION_CONTEXT ( 'configuration controlled 3d designs of mechanical parts and assemblies' ) ;
#38 = CARTESIAN_POINT ( 'NONE',  ( -2.500000000000000444, 10.00000000000000000, 0.000000000000000000 ) ) ;
#39 = VECTOR ( 'NONE', #129, 1000.000000000000000 ) ;
#40 = PRODUCT_DEFINITION_FORMATION_WITH_SPECIFIED_SOURCE ( 'ANY', '', #156, .NOT_KNOWN. ) ;
#41 = DIRECTION ( 'NONE',  ( 0.000000000000000000, 0.000000000000000000, 1.000000000000000000 ) ) ;
#42 = DIRECTION ( 'NONE',  ( 1.000000000000000000, 0.000000000000000000, 0.000000000000000000 ) ) ;
#43 = CARTESIAN_POINT ( 'NONE',  ( -3.000000000000000444, 1.224646799147353256E-15, -10.00000000000000000 ) ) ;
#44 = FACE_OUTER_BOUND ( 'NONE', #186, .T. ) ;
#45 = DIRECTION ( 'NONE',  ( -1.000000000000000000, -0.000000000000000000, -0.000000000000000000 ) ) ;
#46 = LOCAL_TIME ( 9, 26, 34.00000000000000000, #265 ) ;
#47 = COORDINATED_UNIVERSAL_TIME_OFFSET ( 8, 0, .AHEAD. ) ;
#48 = CARTESIAN_POINT ( 'NONE',  ( 2.999999999999999112, 0.000000000000000000, 0.000000000000000000 ) ) ;
#49 = VECTOR ( 'NONE', #309, 1000.000000000000000 ) ;
#50 = EDGE_CURVE ( 'NONE', #244, #5, #169, .T. ) ;
#51 = APPROVAL_PERSON_ORGANIZATION ( #325, #4, #272 ) ;
#52 = PERSON_AND_ORGANIZATION ( #152, #308 ) ;
#53 = ORIENTED_EDGE ( 'NONE', *, *, #249, .T. ) ;
#54 = UNCERTAINTY_MEASURE_WITH_UNIT (LENGTH_MEASURE( 1.000000000000000082E-05 ), #134, 'distance_accuracy_value', 'NONE');
#55 = COORDINATED_UNIVERSAL_TIME_OFFSET ( 8, 0, .AHEAD. ) ;
#56 = ORIENTED_EDGE ( 'NONE', *, *, #132, .T. ) ;
#57 = AXIS2_PLACEMENT_3D ( 'NONE', #220, #331, #149 ) ;
#58 = DATE_AND_TIME ( #260, #182 ) ;
#59 = EDGE_LOOP ( 'NONE', ( #92, #188 ) ) ;
#60 = CARTESIAN_POINT ( 'NONE',  ( -2.500000000000000444, 0.000000000000000000, 10.00000000000000000 ) ) ;
#61 = PRODUCT_RELATED_PRODUCT_CATEGORY ( 'detail', '', ( #156 ) ) ;
#62 = DATE_TIME_ROLE ( 'classification_date' ) ;
#63 =( GEOMETRIC_REPRESENTATION_CONTEXT ( 3 ) GLOBAL_UNCERTAINTY_ASSIGNED_CONTEXT ( ( #54 ) ) GLOBAL_UNIT_ASSIGNED_CONTEXT ( ( #134, #3, #21 ) ) REPRESENTATION_CONTEXT ( 'NONE', 'WORKASPACE' ) );
#64 = VERTEX_POINT ( 'NONE', #302 ) ;
#65 = DIRECTION ( 'NONE',  ( -1.000000000000000000, -0.000000000000000000, -0.000000000000000000 ) ) ;
#66 = ORIENTED_EDGE ( 'NONE', *, *, #213, .T. ) ;
#67 = DIRECTION ( 'NONE',  ( -1.000000000000000000, -0.000000000000000000, -0.000000000000000000 ) ) ;
#68 = APPROVAL ( #1, 'UNSPECIFIED' ) ;
#69 = DIRECTION ( 'NONE',  ( 0.000000000000000000, 0.000000000000000000, 1.000000000000000000 ) ) ;
#70 = VECTOR ( 'NONE', #254, 1000.000000000000000 ) ;
#71 = LINE ( 'NONE', #310, #49 ) ;
#72 = PLANE ( 'NONE',  #257 ) ;
#73 = DIRECTION ( 'NONE',  ( -1.000000000000000000, -0.000000000000000000, -0.000000000000000000 ) ) ;
#74 = EDGE_CURVE ( 'NONE', #12, #64, #201, .T. ) ;
#75 = DATE_AND_TIME ( #27, #46 ) ;
#76 = PLANE ( 'NONE',  #24 ) ;
#77 = AXIS2_PLACEMENT_3D ( 'NONE', #15, #65, #13 ) ;
#78 = CYLINDRICAL_SURFACE ( 'NONE', #150, 10.00000000000000000 ) ;
#79 = CARTESIAN_POINT ( 'NONE',  ( -1.614212418857619014, 0.000000000000000000, 0.000000000000000000 ) ) ;
#80 = CARTESIAN_POINT ( 'NONE',  ( 2.999999999999999112, 1.224646799147353256E-15, -10.00000000000000000 ) ) ;
#81 = CC_DESIGN_APPROVAL ( #68, ( #226 ) ) ;
#82 = ORIENTED_EDGE ( 'NONE', *, *, #142, .F. ) ;
#83 = EDGE_CURVE ( 'NONE', #87, #211, #144, .T. ) ;
#84 = PERSON_AND_ORGANIZATION_ROLE ( 'creator' ) ;
#85 = CC_DESIGN_PERSON_AND_ORGANIZATION_ASSIGNMENT ( #88, #84, ( #40 ) ) ;
#86 = CIRCLE ( 'NONE', #250, 12.69999999999999929 ) ;
#87 = VERTEX_POINT ( 'NONE', #43 ) ;
#88 = PERSON_AND_ORGANIZATION ( #152, #308 ) ;
#89 = EDGE_CURVE ( 'NONE', #64, #87, #148, .T. ) ;
#90 = COORDINATED_UNIVERSAL_TIME_OFFSET ( 8, 0, .AHEAD. ) ;
#91 = APPLICATION_CONTEXT ( 'configuration controlled 3d designs of mechanical parts and assemblies' ) ;
#92 = ORIENTED_EDGE ( 'NONE', *, *, #31, .F. ) ;
#93 = CARTESIAN_POINT ( 'NONE',  ( -3.000000000000000444, 0.000000000000000000, 10.00000000000000000 ) ) ;
#94 = CIRCLE ( 'NONE', #26, 12.69999999999999929 ) ;
#95 = EDGE_LOOP ( 'NONE', ( #238, #158, #224, #115 ) ) ;
#96 = ADVANCED_FACE ( 'NONE', ( #286, #175 ), #76, .F. ) ;
#97 = CARTESIAN_POINT ( 'NONE',  ( -1.614212418857619014, 0.000000000000000000, 0.000000000000000000 ) ) ;
#98 = CYLINDRICAL_SURFACE ( 'NONE', #135, 12.69999999999999929 ) ;
#99 = CARTESIAN_POINT ( 'NONE',  ( -1.614212418857619014, 0.000000000000000000, 0.000000000000000000 ) ) ;
#100 = AXIS2_PLACEMENT_3D ( 'NONE', #97, #145, #124 ) ;
#101 = CARTESIAN_POINT ( 'NONE',  ( -3.000000000000000000, 10.00000000000000000, 0.000000000000000000 ) ) ;
#102 = DIRECTION ( 'NONE',  ( 0.000000000000000000, 0.000000000000000000, -1.000000000000000000 ) ) ;
#103 = EDGE_LOOP ( 'NONE', ( #178, #160, #11, #7 ) ) ;
#104 = PERSON_AND_ORGANIZATION ( #152, #308 ) ;
#105 = CARTESIAN_POINT ( 'NONE',  ( 2.999999999999999112, 0.000000000000000000, 0.000000000000000000 ) ) ;
#106 = DIRECTION ( 'NONE',  ( 0.000000000000000000, 0.000000000000000000, 1.000000000000000000 ) ) ;
#107 = DIRECTION ( 'NONE',  ( -1.000000000000000000, -0.000000000000000000, -0.000000000000000000 ) ) ;
#108 = AXIS2_PLACEMENT_3D ( 'NONE', #278, #245, #218 ) ;
#109 = CIRCLE ( 'NONE', #206, 10.00000000000000000 ) ;
#110 = EDGE_CURVE ( 'NONE', #191, #300, #263, .T. ) ;
#111 = CARTESIAN_POINT ( 'NONE',  ( 0.000000000000000000, 0.000000000000000000, 0.000000000000000000 ) ) ;
#112 = MANIFOLD_SOLID_BREP ( 'Ðý×', #200 ) ;
#113 = LINE ( 'NONE', #227, #194 ) ;
#114 = AXIS2_PLACEMENT_3D ( 'NONE', #101, #247, #146 ) ;
#115 = ORIENTED_EDGE ( 'NONE', *, *, #132, .F. ) ;
#116 = ADVANCED_FACE ( 'NONE', ( #289 ), #315, .T. ) ;
#117 = ORIENTED_EDGE ( 'NONE', *, *, #249, .F. ) ;
#118 = APPROVAL_STATUS ( 'not_yet_approved' ) ;
#119 = AXIS2_PLACEMENT_3D ( 'NONE', #105, #205, #207 ) ;
#120 = CIRCLE ( 'NONE', #297, 12.69999999999999929 ) ;
#121 = EDGE_LOOP ( 'NONE', ( #210, #312, #167, #256 ) ) ;
#122 = EDGE_LOOP ( 'NONE', ( #241, #214, #56, #66 ) ) ;
#123 = DIRECTION ( 'NONE',  ( -1.000000000000000000, -0.000000000000000000, -0.000000000000000000 ) ) ;
#124 = DIRECTION ( 'NONE',  ( 0.000000000000000000, 0.000000000000000000, 1.000000000000000000 ) ) ;
#125 = DIRECTION ( 'NONE',  ( 0.000000000000000000, 0.000000000000000000, 1.000000000000000000 ) ) ;
#126 = DIRECTION ( 'NONE',  ( 0.000000000000000000, 0.000000000000000000, -1.000000000000000000 ) ) ;
#127 = AXIS2_PLACEMENT_3D ( 'NONE', #204, #73, #281 ) ;
#128 = SECURITY_CLASSIFICATION ( '', '', #33 ) ;
#129 = DIRECTION ( 'NONE',  ( -1.000000000000000000, -0.000000000000000000, -0.000000000000000000 ) ) ;
#130 = DIRECTION ( 'NONE',  ( 0.000000000000000000, 0.000000000000000000, 1.000000000000000000 ) ) ;
#131 = DIRECTION ( 'NONE',  ( -0.000000000000000000, 0.000000000000000000, 1.000000000000000000 ) ) ;
#132 = EDGE_CURVE ( 'NONE', #191, #138, #71, .T. ) ;
#133 = FACE_OUTER_BOUND ( 'NONE', #122, .T. ) ;
#134 =( LENGTH_UNIT ( ) NAMED_UNIT ( * ) SI_UNIT ( .MILLI., .METRE. ) );
#135 = AXIS2_PLACEMENT_3D ( 'NONE', #99, #307, #69 ) ;
#136 = CALENDAR_DATE ( 2020, 23, 12 ) ;
#137 = EDGE_LOOP ( 'NONE', ( #10, #217 ) ) ;
#138 = VERTEX_POINT ( 'NONE', #170 ) ;
#139 = ADVANCED_FACE ( 'NONE', ( #284, #253 ), #222, .F. ) ;
#140 = DATE_AND_TIME ( #239, #275 ) ;
#141 = VERTEX_POINT ( 'NONE', #333 ) ;
#142 = EDGE_CURVE ( 'NONE', #154, #138, #242, .T. ) ;
#143 = EDGE_CURVE ( 'NONE', #5, #304, #264, .T. ) ;
#144 = CIRCLE ( 'NONE', #127, 10.00000000000000000 ) ;
#145 = DIRECTION ( 'NONE',  ( -1.000000000000000000, -0.000000000000000000, -0.000000000000000000 ) ) ;
#146 = DIRECTION ( 'NONE',  ( 0.000000000000000000, 0.000000000000000000, -1.000000000000000000 ) ) ;
#147 = LINE ( 'NONE', #285, #70 ) ;
#148 = LINE ( 'NONE', #255, #39 ) ;
#149 = DIRECTION ( 'NONE',  ( -0.000000000000000000, 0.000000000000000000, 1.000000000000000000 ) ) ;
#150 = AXIS2_PLACEMENT_3D ( 'NONE', #229, #316, #155 ) ;
#151 = CARTESIAN_POINT ( 'NONE',  ( -3.000000000000000000, 0.000000000000000000, 12.69999999999999929 ) ) ;
#152 = PERSON ( 'UNSPECIFIED', 'UNSPECIFIED', 'UNSPECIFIED', ('UNSPECIFIED'), ('UNSPECIFIED'), ('UNSPECIFIED') ) ;
#153 = CARTESIAN_POINT ( 'NONE',  ( -3.000000000000000000, 0.000000000000000000, 0.000000000000000000 ) ) ;
#154 = VERTEX_POINT ( 'NONE', #36 ) ;
#155 = DIRECTION ( 'NONE',  ( 0.000000000000000000, 0.000000000000000000, 1.000000000000000000 ) ) ;
#156 = PRODUCT ( 'Q-QZWP-R4-20-894-M', 'Q-QZWP-R4-20-894-M', '', ( #291 ) ) ;
#157 = APPROVAL_PERSON_ORGANIZATION ( #52, #68, #159 ) ;
#158 = ORIENTED_EDGE ( 'NONE', *, *, #25, .T. ) ;
#159 = APPROVAL_ROLE ( '' ) ;
#160 = ORIENTED_EDGE ( 'NONE', *, *, #322, .T. ) ;
#161 = ADVANCED_FACE ( 'NONE', ( #225 ), #168, .F. ) ;
#162 = CIRCLE ( 'NONE', #108, 10.00000000000000000 ) ;
#163 = ORIENTED_EDGE ( 'NONE', *, *, #89, .T. ) ;
#164 = EDGE_LOOP ( 'NONE', ( #299, #53, #246, #184 ) ) ;
#165 = CARTESIAN_POINT ( 'NONE',  ( 3.000000000000000000, 0.000000000000000000, 0.000000000000000000 ) ) ;
#166 = ADVANCED_FACE ( 'NONE', ( #198 ), #197, .F. ) ;
#167 = ORIENTED_EDGE ( 'NONE', *, *, #231, .T. ) ;
#168 = PLANE ( 'NONE',  #57 ) ;
#169 = LINE ( 'NONE', #327, #334 ) ;
#170 = CARTESIAN_POINT ( 'NONE',  ( 2.500000000000000888, 0.000000000000000000, 10.00000000000000000 ) ) ;
#171 = CARTESIAN_POINT ( 'NONE',  ( 3.000000000000000000, 0.000000000000000000, 0.000000000000000000 ) ) ;
#172 = APPROVAL ( #118, 'UNSPECIFIED' ) ;
#173 = CARTESIAN_POINT ( 'NONE',  ( 2.500000000000000888, 0.000000000000000000, 0.000000000000000000 ) ) ;
#174 = DIRECTION ( 'NONE',  ( -1.000000000000000000, -0.000000000000000000, -0.000000000000000000 ) ) ;
#175 = FACE_BOUND ( 'NONE', #137, .T. ) ;
#176 = PERSON_AND_ORGANIZATION_ROLE ( 'creator' ) ;
#177 = CC_DESIGN_APPROVAL ( #172, ( #128 ) ) ;
#178 = ORIENTED_EDGE ( 'NONE', *, *, #14, .T. ) ;
#179 = CARTESIAN_POINT ( 'NONE',  ( -3.000000000000000000, 1.555301434917138433E-15, -12.69999999999999929 ) ) ;
#180 = DIRECTION ( 'NONE',  ( 0.000000000000000000, 0.000000000000000000, 1.000000000000000000 ) ) ;
#181 = DIRECTION ( 'NONE',  ( 0.000000000000000000, 0.000000000000000000, 1.000000000000000000 ) ) ;
#182 = LOCAL_TIME ( 9, 26, 34.00000000000000000, #47 ) ;
#183 = CC_DESIGN_PERSON_AND_ORGANIZATION_ASSIGNMENT ( #271, #190, ( #128 ) ) ;
#184 = ORIENTED_EDGE ( 'NONE', *, *, #324, .F. ) ;
#185 = DIRECTION ( 'NONE',  ( -1.000000000000000000, -0.000000000000000000, -0.000000000000000000 ) ) ;
#186 = EDGE_LOOP ( 'NONE', ( #219, #163, #196, #32 ) ) ;
#187 = COORDINATED_UNIVERSAL_TIME_OFFSET ( 8, 0, .AHEAD. ) ;
#188 = ORIENTED_EDGE ( 'NONE', *, *, #83, .F. ) ;
#189 = CIRCLE ( 'NONE', #292, 10.00000000000000000 ) ;
#190 = PERSON_AND_ORGANIZATION_ROLE ( 'classification_officer' ) ;
#191 = VERTEX_POINT ( 'NONE', #332 ) ;
#192 = DIRECTION ( 'NONE',  ( 0.000000000000000000, 0.000000000000000000, 1.000000000000000000 ) ) ;
#193 = ORIENTED_EDGE ( 'NONE', *, *, #273, .F. ) ;
#194 = VECTOR ( 'NONE', #232, 1000.000000000000000 ) ;
#195 = CARTESIAN_POINT ( 'NONE',  ( -2.500000000000000444, 0.000000000000000000, 0.000000000000000000 ) ) ;
#196 = ORIENTED_EDGE ( 'NONE', *, *, #83, .T. ) ;
#197 = CYLINDRICAL_SURFACE ( 'NONE', #100, 10.00000000000000000 ) ;
#198 = FACE_OUTER_BOUND ( 'NONE', #95, .T. ) ;
#199 = ADVANCED_FACE ( 'NONE', ( #282 ), #72, .F. ) ;
#200 = CLOSED_SHELL ( 'NONE', ( #116, #293, #166, #161, #298, #280, #139, #221, #96, #199 ) ) ;
#201 = CIRCLE ( 'NONE', #296, 10.00000000000000000 ) ;
#202 = DIRECTION ( 'NONE',  ( 0.000000000000000000, 0.000000000000000000, 1.000000000000000000 ) ) ;
#203 = CARTESIAN_POINT ( 'NONE',  ( -1.614212418857619014, 0.000000000000000000, 0.000000000000000000 ) ) ;
#204 = CARTESIAN_POINT ( 'NONE',  ( -3.000000000000000444, 0.000000000000000000, 0.000000000000000000 ) ) ;
#205 = DIRECTION ( 'NONE',  ( -1.000000000000000000, -0.000000000000000000, -0.000000000000000000 ) ) ;
#206 = AXIS2_PLACEMENT_3D ( 'NONE', #279, #67, #202 ) ;
#207 = DIRECTION ( 'NONE',  ( 0.000000000000000000, 0.000000000000000000, 1.000000000000000000 ) ) ;
#208 = APPLICATION_PROTOCOL_DEFINITION ( 'international standard', 'config_control_design', 1994, #91 ) ;
#209 = PERSON_AND_ORGANIZATION ( #152, #308 ) ;
#210 = ORIENTED_EDGE ( 'NONE', *, *, #89, .F. ) ;
#211 = VERTEX_POINT ( 'NONE', #93 ) ;
#212 = DATE_AND_TIME ( #215, #319 ) ;
#213 = EDGE_CURVE ( 'NONE', #138, #154, #109, .T. ) ;
#214 = ORIENTED_EDGE ( 'NONE', *, *, #110, .F. ) ;
#215 = CALENDAR_DATE ( 2020, 23, 12 ) ;
#216 = DESIGN_CONTEXT ( 'detailed design', #37, 'design' ) ;
#217 = ORIENTED_EDGE ( 'NONE', *, *, #330, .T. ) ;
#218 = DIRECTION ( 'NONE',  ( 0.000000000000000000, 0.000000000000000000, 1.000000000000000000 ) ) ;
#219 = ORIENTED_EDGE ( 'NONE', *, *, #74, .T. ) ;
#220 = CARTESIAN_POINT ( 'NONE',  ( 2.500000000000000444, 10.00000000000000000, 0.000000000000000000 ) ) ;
#221 = ADVANCED_FACE ( 'NONE', ( #252 ), #98, .T. ) ;
#222 = PLANE ( 'NONE',  #114 ) ;
#223 = FACE_OUTER_BOUND ( 'NONE', #121, .T. ) ;
#224 = ORIENTED_EDGE ( 'NONE', *, *, #142, .T. ) ;
#225 = FACE_OUTER_BOUND ( 'NONE', #234, .T. ) ;
#226 = PRODUCT_DEFINITION ( 'UNKNOWN', '', #40, #216 ) ;
#227 = CARTESIAN_POINT ( 'NONE',  ( -1.614212418857619014, 1.555301434917138433E-15, -12.69999999999999929 ) ) ;
#228 = ORIENTED_EDGE ( 'NONE', *, *, #213, .F. ) ;
#229 = CARTESIAN_POINT ( 'NONE',  ( -1.614212418857619014, 0.000000000000000000, 0.000000000000000000 ) ) ;
#230 = LOCAL_TIME ( 9, 26, 34.00000000000000000, #55 ) ;
#231 = EDGE_CURVE ( 'NONE', #12, #211, #147, .T. ) ;
#232 = DIRECTION ( 'NONE',  ( -1.000000000000000000, -0.000000000000000000, -0.000000000000000000 ) ) ;
#233 = APPROVAL_DATE_TIME ( #75, #68 ) ;
#234 = EDGE_LOOP ( 'NONE', ( #228, #82 ) ) ;
#235 = CIRCLE ( 'NONE', #301, 10.00000000000000000 ) ;
#236 = SHAPE_DEFINITION_REPRESENTATION ( #240, #248 ) ;
#237 = CC_DESIGN_DATE_AND_TIME_ASSIGNMENT ( #8, #62, ( #128 ) ) ;
#238 = ORIENTED_EDGE ( 'NONE', *, *, #330, .F. ) ;
#239 = CALENDAR_DATE ( 2020, 23, 12 ) ;
#240 = PRODUCT_DEFINITION_SHAPE ( 'NONE', 'NONE',  #226 ) ;
#241 = ORIENTED_EDGE ( 'NONE', *, *, #25, .F. ) ;
#242 = CIRCLE ( 'NONE', #287, 10.00000000000000000 ) ;
#243 = AXIS2_PLACEMENT_3D ( 'NONE', #111, #106, #290 ) ;
#244 = VERTEX_POINT ( 'NONE', #17 ) ;
#245 = DIRECTION ( 'NONE',  ( -1.000000000000000000, -0.000000000000000000, -0.000000000000000000 ) ) ;
#246 = ORIENTED_EDGE ( 'NONE', *, *, #50, .T. ) ;
#247 = DIRECTION ( 'NONE',  ( 1.000000000000000000, 0.000000000000000000, 0.000000000000000000 ) ) ;
#248 = ADVANCED_BREP_SHAPE_REPRESENTATION ( 'Q-QZWP-R4-20-894-M', ( #112, #243 ), #63 ) ;
#249 = EDGE_CURVE ( 'NONE', #141, #244, #120, .T. ) ;
#250 = AXIS2_PLACEMENT_3D ( 'NONE', #165, #18, #192 ) ;
#251 = AXIS2_PLACEMENT_3D ( 'NONE', #79, #107, #180 ) ;
#252 = FACE_OUTER_BOUND ( 'NONE', #164, .T. ) ;
#253 = FACE_OUTER_BOUND ( 'NONE', #266, .T. ) ;
#254 = DIRECTION ( 'NONE',  ( -1.000000000000000000, -0.000000000000000000, -0.000000000000000000 ) ) ;
#255 = CARTESIAN_POINT ( 'NONE',  ( -1.614212418857619014, 1.224646799147353256E-15, -10.00000000000000000 ) ) ;
#256 = ORIENTED_EDGE ( 'NONE', *, *, #31, .T. ) ;
#257 = AXIS2_PLACEMENT_3D ( 'NONE', #38, #42, #306 ) ;
#258 = CYLINDRICAL_SURFACE ( 'NONE', #6, 10.00000000000000000 ) ;
#259 = CARTESIAN_POINT ( 'NONE',  ( 2.999999999999999112, 12.69999999999999929, 0.000000000000000000 ) ) ;
#260 = CALENDAR_DATE ( 2020, 23, 12 ) ;
#261 = CC_DESIGN_PERSON_AND_ORGANIZATION_ASSIGNMENT ( #104, #176, ( #226 ) ) ;
#262 = DIRECTION ( 'NONE',  ( 0.000000000000000000, 0.000000000000000000, 1.000000000000000000 ) ) ;
#263 = CIRCLE ( 'NONE', #119, 10.00000000000000000 ) ;
#264 = CIRCLE ( 'NONE', #77, 12.69999999999999929 ) ;
#265 = COORDINATED_UNIVERSAL_TIME_OFFSET ( 8, 0, .AHEAD. ) ;
#266 = EDGE_LOOP ( 'NONE', ( #321, #295 ) ) ;
#267 = PERSON_AND_ORGANIZATION_ROLE ( 'design_owner' ) ;
#268 = APPROVAL_ROLE ( '' ) ;
#269 = VECTOR ( 'NONE', #45, 1000.000000000000000 ) ;
#270 = CC_DESIGN_PERSON_AND_ORGANIZATION_ASSIGNMENT ( #209, #267, ( #156 ) ) ;
#271 = PERSON_AND_ORGANIZATION ( #152, #308 ) ;
#272 = APPROVAL_ROLE ( '' ) ;
#273 = EDGE_CURVE ( 'NONE', #64, #12, #235, .T. ) ;
#274 = PERSON_AND_ORGANIZATION ( #152, #308 ) ;
#275 = LOCAL_TIME ( 9, 26, 34.00000000000000000, #187 ) ;
#276 = LINE ( 'NONE', #329, #269 ) ;
#277 = PERSON_AND_ORGANIZATION ( #152, #308 ) ;
#278 = CARTESIAN_POINT ( 'NONE',  ( -3.000000000000000444, 0.000000000000000000, 0.000000000000000000 ) ) ;
#279 = CARTESIAN_POINT ( 'NONE',  ( 2.500000000000000888, 0.000000000000000000, 0.000000000000000000 ) ) ;
#280 = ADVANCED_FACE ( 'NONE', ( #223 ), #335, .F. ) ;
#281 = DIRECTION ( 'NONE',  ( 0.000000000000000000, 0.000000000000000000, 1.000000000000000000 ) ) ;
#282 = FACE_OUTER_BOUND ( 'NONE', #22, .T. ) ;
#283 = DIRECTION ( 'NONE',  ( -1.000000000000000000, -0.000000000000000000, -0.000000000000000000 ) ) ;
#284 = FACE_BOUND ( 'NONE', #59, .T. ) ;
#285 = CARTESIAN_POINT ( 'NONE',  ( -1.614212418857619014, 0.000000000000000000, 10.00000000000000000 ) ) ;
#286 = FACE_OUTER_BOUND ( 'NONE', #318, .T. ) ;
#287 = AXIS2_PLACEMENT_3D ( 'NONE', #173, #123, #125 ) ;
#288 = DIRECTION ( 'NONE',  ( -1.000000000000000000, -0.000000000000000000, -0.000000000000000000 ) ) ;
#289 = FACE_OUTER_BOUND ( 'NONE', #103, .T. ) ;
#290 = DIRECTION ( 'NONE',  ( 1.000000000000000000, 0.000000000000000000, 0.000000000000000000 ) ) ;
#291 = MECHANICAL_CONTEXT ( 'NONE', #91, 'mechanical' ) ;
#292 = AXIS2_PLACEMENT_3D ( 'NONE', #48, #185, #181 ) ;
#293 = ADVANCED_FACE ( 'NONE', ( #44 ), #258, .F. ) ;
#294 = PERSON_AND_ORGANIZATION_ROLE ( 'design_supplier' ) ;
#295 = ORIENTED_EDGE ( 'NONE', *, *, #324, .T. ) ;
#296 = AXIS2_PLACEMENT_3D ( 'NONE', #313, #2, #102 ) ;
#297 = AXIS2_PLACEMENT_3D ( 'NONE', #171, #283, #41 ) ;
#298 = ADVANCED_FACE ( 'NONE', ( #133 ), #78, .F. ) ;
#299 = ORIENTED_EDGE ( 'NONE', *, *, #322, .F. ) ;
#300 = VERTEX_POINT ( 'NONE', #80 ) ;
#301 = AXIS2_PLACEMENT_3D ( 'NONE', #195, #16, #126 ) ;
#302 = CARTESIAN_POINT ( 'NONE',  ( -2.500000000000000444, 1.224646799147353256E-15, -10.00000000000000000 ) ) ;
#303 = CARTESIAN_POINT ( 'NONE',  ( -1.614212418857619014, 0.000000000000000000, 0.000000000000000000 ) ) ;
#304 = VERTEX_POINT ( 'NONE', #179 ) ;
#305 = CC_DESIGN_DATE_AND_TIME_ASSIGNMENT ( #58, #326, ( #226 ) ) ;
#306 = DIRECTION ( 'NONE',  ( 0.000000000000000000, 0.000000000000000000, -1.000000000000000000 ) ) ;
#307 = DIRECTION ( 'NONE',  ( -1.000000000000000000, -0.000000000000000000, -0.000000000000000000 ) ) ;
#308 = ORGANIZATION ( 'UNSPECIFIED', 'UNSPECIFIED', '' ) ;
#309 = DIRECTION ( 'NONE',  ( -1.000000000000000000, -0.000000000000000000, -0.000000000000000000 ) ) ;
#310 = CARTESIAN_POINT ( 'NONE',  ( -1.614212418857619014, 0.000000000000000000, 10.00000000000000000 ) ) ;
#311 = DIRECTION ( 'NONE',  ( -1.000000000000000000, -0.000000000000000000, -0.000000000000000000 ) ) ;
#312 = ORIENTED_EDGE ( 'NONE', *, *, #273, .T. ) ;
#313 = CARTESIAN_POINT ( 'NONE',  ( -2.500000000000000444, 0.000000000000000000, 0.000000000000000000 ) ) ;
#314 = DIRECTION ( 'NONE',  ( 0.000000000000000000, 0.000000000000000000, 1.000000000000000000 ) ) ;
#315 = CYLINDRICAL_SURFACE ( 'NONE', #251, 12.69999999999999929 ) ;
#316 = DIRECTION ( 'NONE',  ( -1.000000000000000000, -0.000000000000000000, -0.000000000000000000 ) ) ;
#317 = APPLICATION_PROTOCOL_DEFINITION ( 'international standard', 'config_control_design', 1994, #37 ) ;
#318 = EDGE_LOOP ( 'NONE', ( #35, #117 ) ) ;
#319 = LOCAL_TIME ( 9, 26, 34.00000000000000000, #90 ) ;
#320 = APPROVAL_DATE_TIME ( #140, #4 ) ;
#321 = ORIENTED_EDGE ( 'NONE', *, *, #143, .T. ) ;
#322 = EDGE_CURVE ( 'NONE', #141, #304, #113, .T. ) ;
#323 = APPROVAL_DATE_TIME ( #212, #172 ) ;
#324 = EDGE_CURVE ( 'NONE', #304, #5, #94, .T. ) ;
#325 = PERSON_AND_ORGANIZATION ( #152, #308 ) ;
#326 = DATE_TIME_ROLE ( 'creation_date' ) ;
#327 = CARTESIAN_POINT ( 'NONE',  ( -1.614212418857619014, 0.000000000000000000, 12.69999999999999929 ) ) ;
#328 = APPROVAL_PERSON_ORGANIZATION ( #277, #172, #268 ) ;
#329 = CARTESIAN_POINT ( 'NONE',  ( -1.614212418857619014, 1.224646799147353256E-15, -10.00000000000000000 ) ) ;
#330 = EDGE_CURVE ( 'NONE', #300, #191, #189, .T. ) ;
#331 = DIRECTION ( 'NONE',  ( -1.000000000000000000, 0.000000000000000000, -0.000000000000000000 ) ) ;
#332 = CARTESIAN_POINT ( 'NONE',  ( 2.999999999999999112, 0.000000000000000000, 10.00000000000000000 ) ) ;
#333 = CARTESIAN_POINT ( 'NONE',  ( 3.000000000000000000, 1.555301434917138433E-15, -12.69999999999999929 ) ) ;
#334 = VECTOR ( 'NONE', #311, 1000.000000000000000 ) ;
#335 = CYLINDRICAL_SURFACE ( 'NONE', #9, 10.00000000000000000 ) ;
ENDSEC;
END-ISO-10303-21;
